AC/DC - EASY! AC/DC - DIRTY DEEDS DONE DIRT CHEAP - How to Play - Free Online Guitar Lessons With Tabs

# 12751
00:07:29
Поделиться

Категория ролика: AC/DC уникальные клипы

50 MILLION+ VIEWS!! TABS AVAILABLE IN THE DESCRIPTION SECTION AND VIDEO
Free Guitar Lessons:
E--------------------------------------------------
B---------------------------------------3---------
G------------------------2-------------2---------
D---2------5--2--------2---2--------0---2-----
A---2------5--2--------0---2-------------2-----
E---0------3--0------------0-------------0-----

2)
E-------------------
B-------------------
G---7--/9---9-----
D---7--/9---9-----
A---5--/7---7-----
E-------------------

E---------------------------------
B---------------------------------
G---7--/9--9--------------------
D---7--/9--9--( 5 TIMES )---
A---5--/7--7--------------------
E---------------------------------

3)
E---------------------------------------------------------
B-------------------------------------------3------------
G---2--------2---0---2-------------------2------------
D---2--------2---0---2------2-------2---0---2-------
A---0--------0---2---0------2-------2--------2-------
E-----------------3-----------0-------0--------0-------

E---------
B--------
G--------
D---2---
A---2---
E---0---

4) SOLO
E--------------------------------------
B--------------------------------------
G--------------------------------------
D---7--7--7---9---------------------
A---7--7--7---9--( 4 TIMES )----
E---5--5--5---7---------------------

E---------------------------
B---------------------------
G---7--7--7--------------
D---7--7--7--------2----
A---5--5--5--------2----
E---------------3---0----

5) ENDING
E------------------------------------------------------
B------------------------------------------3----------
G------------------------2----------------2----------
D---2------5--2--------2---2-------2---0---2-----
A---2------5--2--------0---2-------2--------2-----
E---0------3--0------------0-------0--------0------
Комментарии (0)
Добавить комментарий

похожие ролики | ролики автора