AC/DC - AC/DC - HELL'S BELLS ( 1 of 2 ) - How to Play - Free Online Guitar Lessons With Tabs

# 12754
00:06:37
Поделиться

Категория ролика: AC/DC уникальные клипы

50 MILLION VIEWS!! Free Guitar Lessons:
Part 2 of 2
E----------------------------------------------------------------------------------------------------------
B----------------------------------------------------------------------------------------------------------
G-------9--------7-----------5-----------------7----------------9--------7-----------5----------7---
D-----------7--------7--------------5----------------7-----------------7-------7-----------5----------
A---0--------------------0----------------0---------------0--0---------------------0----------0-------
E------------------------------------------------------------------------------------------------------------

E----------------
B----------------
G----------------
D----------------
A---3--2--0----
E----------------


E------------------------------------------------------------
B------------------------------------------------------------
G-------9----7---9------2---0---2-----------------------
D-------7----7---7------0---0---0-----0---------5--5--
A---0------------------------------------------0----3--2--
E------------------------------------------------------------

E------2----------------------------
B-----3-----------------------------
G----2------------0-----5---------
D---0-------------0-----5----5----
A------------------------3----5----
E------------------------------3----

E------------------------------------2-----0----------------------------------------------3--
B------------------------------------3-----2----------------------------------------------3--
G-----------------------------------2------2---------------------------------------0-----0--
D-------9--7--9----9--7--9------0-----2-----------9--7--9----9--7--9------0-----0--
A-------7--5--7----7--5--7-------------0-----------7--5--7----7--5--7------------2--
E---0---------------------------------------------0--------------------------------------3--
Комментарии (0)
Добавить комментарий

похожие ролики | ролики автора